E-Chords
Johnny Hooker

Eu Vou Fazer Uma Macumba Pra Te Amarrar, Maldito!(Chords)

Johnny Hooker

Key: Eb
( Eb5+  C#m6  Bb5-  Eb4/G# ) 2x 

Eb5+ 
Talvez algum dia 
   C#m6 
Eu te encontre por ai 
   Bb5- 
Pra me desenganar 
  Eb4/G# 
Pra me fazer sorrir (riff) 

Eb5+ 
É, talvez algum dia 
     C#m6 
Eu vou te encontrar 
          Bb5- 
E só se eu te implorar 
           Eb4/G# 
Conte mentiras pra me fazer sonhar (riff) 

Eb5+                       C#m6 
E na doce cadencia do samba 
                      Bb5- 
Me perder numa roda de bamba 
E não 
 Eb4/G# 
E nunca mais voltar (riff) 
Eb5+ 
E se quiser dançar 
          C#m6 
Se quiser dançar 
Posso te ensinar 
             Bb5- 
Na cadência do samba-iá-iá 
           Eb4/G# 
Cadência do samba-iá-iá (riff) 

Eb5+                            C#m6 
Eu vou chamar Iansã e Ogum e Oxalá 
                                  Bb5- 
Vou fazer uma macumba pra te amarrar, maldito 
                  Eb4/G# 
Eu vou fazer, eu vou fazer (variação de riff) 

Solo: 
  
 
E|-5-5-5-5-5-5-5-5-5-5-5-5-5-7-7-7-7-7-7-7-7-7-7-7-7-7--| 
B|------------------------------------------------------| 
G|------------------------------------------------------| 
D|------------------------------------------------------| 
A|------------------------------------------------------| 
E|------------------------------------------------------| 
 
E|-8-8-8-8-8-8-10-10-10-10-10-10-12-12-12-12-12-12-12-12| 
B|------------------------------------------------------| 
G|------------------------------------------------------| 
D|------------------------------------------------------| 
A|------------------------------------------------------| 
E|------------------------------------------------------| 
Eb5+ C#m6 Te desejo uma vida de desilusão Bb5- Eb4/G# Não desejo afago, nem o perdão (riff) Eb5+ C#m6 E que seja feliz com quem encontrar Bb5- Mas nunca mais volte aqui Eb4/G# Profane o meu lar (riff) Eb5+ C#m6 E na doce cadencia do samba Bb5- Me perder numa roda de bamba E não Eb4/G# E nunca mais voltar (riff) Eb5+ E se quiser dançar C#m6 Se quiser dançar Posso te ensinar Bb5- Na cadência do samba-iá-iá Eb4/G# Cadência do samba-iá-iá (riff) Eb5+ C#m6 Eu vou chamar Iansã e Ogum e Oxalá Bb5- Vou fazer uma macumba pra te amarrar, maldito 4x Eb4/G# Eu vou fazer, eu vou fazer (variação de riff)
 
  Riff                  Eb5+ 
E|-----------------------X------------------| 
B|-----5-----------------X------------------| 
G|-7p5---2p1--2-4-5------8------------------| 
D|-----------------------9------------------| 
A|-----------------------6------------------| 
E|-----------------------x------------------| 
Variação de Riff
 
E|-----------------------------------------| 
B|-----5-----------------------------------| 
G|-7p5---2p1--2-4--------------------------| 
D|-----------------------------------------| 
A|-----------------------------------------| 
E|-----------------------------------------| 
Acordes
 
   Eb5+   C#m6   Bb5-   Eb4/G# 
E|------------------------------------| 
B|------------------------------------| 
G|-8------3------3-------3------------| 
D|-9------2------2-------1------------| 
A|-6------4------1--------------------| 
E|-----------------------4------------|

roll up this ad to continue

share this page

See Also: