Jack Johnson

Gone (ver. 2)(Chords)

Jack Johnson

Key: E

roll up this ad to continue

	        INTRO 
===== 
(Repeat four times) 
   E          C#m 
e|----------------------| 
B|-----9----------5-----| 
G|-----9----------6-----| 
D|---9---(0)----6---(0)-| 
A|-7----------4---------| 
E|----------------------| 
 
VERSES 
====== 
   E          G#          C#m        A            
e|----------------------|----------------------| 
B|-----9----------4-----|-----5----------5-----| 
G|-----9----------5-----|-----6----------6-----| 
D|---9---(0)----6---(0)-|---6---(0)----7---(0)-| 
A|-7--------------------|-4--------------------| 
E|------------4---------|------------5---------| 
 
   F#m      F#m       B        B 
e|------------------|--------------------| 
B|-----2--------2---|-----4--------4-----| 
G|-----2--------2---|-----4--------4-----| 
D|---4---4----4---4-|---4---4----4---(0)-| 
A|------------------|-2--------2---------| 
E|-2--------2-------|--------------------| 
 
CHORUS 
====== 
   E          B           C#m        A 
e|----------------------|-----------------------| 
B|-----9----------4-----|-----5----------5------| 
G|-----9----------4-----|-----6----------6------| 
D|---9---(0)----4---(0)-|---6---(0)----7---(0)--| 
A|-7----------2---------|-4---------------------| 
E|----------------------|------------5----------|
============================================================================ E G# C#m A Well_look_at_all those fancy clothes But these could keep us warm just like those And what about your ^soul^, is it cold, is it... F#m B Straight from the mold_and ready to be sold? E G# C#m A And cars and phones and diamond rings... bling, bling Those are only removable things And what about your ^mind^, does it shine or... F#m B Are there things that concern you.. more than your time? E B C#m A Gone, going, gone everything gone, give_a_damn Gone be the birds when they don't wanna sing Gone people... all awkward with their things, gone {2xINTRO} E G# C#m A Look at you_out to make a deal You_try_to_be_appealing but you lose your_appeal And what about those ^shoes you're in today^ they'll do no F#m B Good...on the bridges you've burnt along the way, oh E B C#m A (CHORUS!) You're willing to sell anything gone with your hurt Leave your footprints we'll shame them with our words Gone people... all careless and consumed, gone Gone, going, gone everything gone, give_a_damn Gone be the birds if they don't wanna sing Gone people... all awkward with their things, gone.

Written by Jack Johnson

See Also: