E-Chords
Grupo Arranke

A Través Del Vaso(Chords)

Grupo Arranke

roll up this ad to continue

Key: F
(Requinto) 

e|8--6-8--6-5-------8--8--6-6-5-5-5----| 
B|10-8-10-8-6-------10-10-8-8-6-6-6----| 
G|------------5-5-5-----------------5-5| 
D|-------------------------------------| 

e|8--6-8--6-5-------8--8--8--6-6-6-5-5-5-5----| 
B|10-8-10-8-6-------10-10-10-8-8-8-6-6-6-6----| 
G|------------7-7-7------------------------9-7| 
D|--------------------------------------------| 

e|-------------------------| 
B|-------------------------| 
G|7-5-7-5-7----------------| 
D|----------8-8-8-7-5-8-8-8| 

e|---------------------------------| 
B|------------------------------6-5| 
G|7-5-7-5-7-5---5-7-5-7-5---5-7----| 
D|------------8-----------8--------| 

e|-8--10-10-10-8--8--8--6-6-6-5--| 
B|-10-11-11-11-10-10-10-8-8-8-6--| 
G|-------------------------------| 
D|-------------------------------| 


F 
Quisiera morirme en una buena peda 

                Dm 
por que esto de amarte, me trajo problemas 

             A#              Gm 
a traves del vaso ya miro tu cara 

             A#     Gm            C 
las ganas de verte, no se van con nada 


F 
Tengo mucha prisa por ir a buscarte 

         Dm 
luego me arrepiento, me gana el coraje 

       A#                          Gm 
fue la decepción más grande que he tenido 

             A#          Gm          C 
lo que tu me hiciste, lo peor que he vivido 

(Coro x2) 

F 
Dime cantinero, tu sabes de penas 

              Dm 
a los cuantos tragos me olvido de ella 

        A#               C 
ella me cambio, por unas monedas 

           A#                   C 
hoy quiere volver, mejor que no vuelva 


F 
Por que ya no quiero, saber de su vida 

             Dm 
recordar sus besos solo me lastima 

            A#               C 
a traves del vaso, yo la sigo viendo 

                A#            C 
por que como un loco, la sigo queriendo 

        F 
la sigo queriendo 
share this page

See Also: