E-Chords
Green Valley

Tu Mejor Versión(Chords)

Green Valley

Key: C
Intro: 

Parte 1: 
E---------------------------------------------------- 
B---------------------------------------------------- 
G-----5------7/9----9----7-----5----7------5--------- 
D--5--------------------------------------------7---- 
A---------------------------------------------------- 
E---------------------------------------------------- 

Parte 2: 
E----------------------------------------------------- 
B----------------------------------------------------- 
G-----5------7/9----9----7-----5----7----------------- 
D--5-------------------------------------------------- 
A----------------------------------------------------- 
E----------------------------------------------------- 
C G6 C Fmaj7 C Fmaj7 Hoy, ha llegado el momento de tu decisión Am Has venido al mundo a perder el control G6 Salte de tu zona de confort Y cambiarás la situación Am Fmaj7 No te encierres y sal a busca del Sol C Hagas lo que hagas ponle corazón G6 Intenta ser de ti tu mejor versión Tu mejor versión C Fmaj7 Si hace algún tiempo te sientes perdido Am Si has perdido la esperanza en ti mismo G6 Intenta ponerle color y color Am El color de la vida, el color de tu fe Fmaj7 Intenta ponerle color otra vez C Volver a creer, creer en ti mismo G6 Encontrarle el sentido y volver a nacer C A nacer con amor y la libertad Fmaj7 A olvidarte del quien y del que dirán Am A mirarte al espejo y verte como un niño G6 A tenerte cariño lo primordial Am A ser la mejor versión de ti Fmaj7 A quererte a ti mismo y a sonreír C A cambiar el presente, olvidar el futuro G6 Pasar del pasado empieza a construir C Fmaj7 Hoy, ha llegado el momento de tu decisión Am Has venido al mundo a perder el control G6 Salte de tu zona de confort Y cambiarás la situación Am Fmaj7 No te encierres y sal a busca del Sol C Hagas lo que hagas ponle corazón G6 Intenta ser de ti tu mejor versión Tu mejor versión C Fmaj7 Tú coge carrerilla y empieza a correr Rompe los grilletes y vuela Am G6 Despierta tu cuerpo y arranca tu ser Despójate de lo que duela Am Fmaj7 La vida es un duelo y toca disparar C Dispara y que se salve quien pueda G6 Hoy te toca pensar en ti mismo y marchar Hoy toca salir de la cueva C Fmaj7 El que no corre vuela y tú debes correr Tendrás que desgastar tu suela Am G6 No te quiero volver a ver llorar Ni que te queden secuelas Am Fmaj7 A ser la mejor versión de ti C A quererte a ti mismo y a sonreír A cambiar el presente, olvidar el futuro G6 Y pasar del pasado, empieza a construir C Fmaj7 Hoy, ha llegado el momento de tu decisión Am Has venido al mundo a perder el control G6 Salte de tu zona de confort Y cambiarás la situación Am Fmaj7 No te encierres y sal a busca del Sol C Hagas lo que hagas ponle corazón G6 Intenta ser de ti tu mejor versión Tu mejor versión Tu mejor versión Tu mejor versión Tu mejor versión

roll up this ad to continue

share this page

See Also: