E-Chords
Felipe Ferrero

Em Meio À Todo Caos(Chords)

Felipe Ferrero

Key: D
Capo on 2nd fret
 
Intro 
    
   C                   G              F            G 
E|--------x---------------------------------0-1-0--3-3-3s5-3-1-1s3| 
B|-0h1-1--x-0h1-1-3-1--3-3-3s5-3-1-0--1-1-3--------3-3------------| 
G|-0---0--x-0----------0-0------------2-2----------0-0------------| 
D|-2---2--x-2----------0-0------------3-3-------------------------| 
A|-3---3--x-3-----------------------------------------------------| 
E|--------x------------3-3------------1-1----------3-3------------|
C Eu sei que a evolução mudou G Fez do homem o ser de pensamento livre F Que embora desperdice sua capacidade G Ainda tem vontade de ser o melhor de si C Agora tudo é passageiro G Como um viajante preso no avião Am Sem conseguir parar F Mas nada me difere a vida G De um punhado de areia Que o vento jogou pro ar C Atravesso a esquina G Olho para o lado e pro outro Am Esqueço de olhar F A vida é mesmo um fio G Não sei se de aço Ou de fibra de seda
   C                   G              F            G 
E|--------x---------------------------------0-1-0--3-3-3s5-3-1-1s3| 
B|-0h1-1--x-0h1-1-3-1--3-3-3s5-3-1-0--1-1-3--------3-3------------| 
G|-0---0--x-0----------0-0------------2-2----------0-0------------| 
D|-2---2--x-2----------0-0------------3-3-------------------------| 
A|-3---3--x-3-----------------------------------------------------| 
E|--------x------------3-3------------1-1----------3-3------------|
C Eu sei que o ser humano errou G Fez do mundo um caos de sentimento triste F Que embora já conheça tantas atrocidades G Ainda faz sua parte pra tudo ruir pro fim Em E o calor do Sol F Aquece a carcaça Tudo ganha graça G Mas antes que eu me esqueça ( C G Am F G ) ( C G Am F G ) C Agora tudo é passageiro G Como um viajante preso no avião Am Sem conseguir parar F Mas nada me difere a vida G De um punhado de areia Que o vento jogou pro ar C Atravesso a esquina G Olho para o lado e pro outro Am Esqueço de olhar F A vida é mesmo um fio G Não sei se de aço Ou de fibra de seda Em F G E antes que eu me esqueça C A gente deu um nó

roll up this ad to continue

share this page

See Also: