E-Chords
Fake Number

Ignorar(Chords)

Fake Number

roll up this ad to continue

Key: E
 

   
Intro: 
e|-------------------------------------|  
B|9-9-9-9-9-9-10-10-10-9-9-9-10-10-9-9-|  
G|9-9-9-9-9-9-9--9--9--9-9-9-9--9--9-9-|  
D|-------------------------------------|  
A|-------------------------------------|  
E|-------------------------------------|  

   E5              
e|-------------------------------------|  
B|9-9-9-9-9-9-10-10-10-9-9-9---9-9-----|  
G|9-9-9-9-9-9-9--9--9--9-9-9---9-9-----|  
D|-------------------------------------|  
A|-------------------------------------|  
E|-------------------------------------|  

   E5 F#5 C#5  
e|-------------------------------------|  
B|9-9-9-9-9-9-10-10-10-9-9-9-10-10-9-9-|  
G|9-9-9-9-9-9-9--9--9--9-9-9-9--9--9-9-|   
D|-------------------------------------| (3x)  
A|-------------------------------------|  
E|-------------------------------------|  
    
   A5  
e|-------------------------------------|  
B|-12----12---12----12---12------------|  
G|---9-----9----9-----9----9-----------|  
D|-----9----9-----9----9----9----------|  
A|-0-----------------------------------|  
E|-------------------------------------|  
PARTE 1 E F#m Faço de tudo pra tentar melhorar C#m A Quantas vezes esqueci e deixei passar E Nem sempre o que eu quero F#m C#m é o que da, mas me escute agora A eu tenho que falar E Sim, eu sei foi difícil F#m acreditar que um momento D A pode fazer tudo terminar E F#m Eu tentei fui pra você melhor D do que ninguém, nossos sonhos A sempre foram mais alem PARTE 1
  
  Faço de tudo pra tentar melhorar....  
e|--------------------------------------------------------------------|  
B|---9--------12----------9------12----12---12----12---12-------------|  
G|-----9---------9----------9-------9----9-----9----9----9------------|  
D|-9----------------------------------9----9-----9----9----9----------|  
A|----------9--------------------0------------------------------------|  
E|---------------------9----------------------------------------------|  

  Nem sempre o que eu quero ...  
e|------------------------------------------------------------------------|  
B|------------------------------------------------------------------------|  
G|9-9-9-9-9-9-9-9-8-8-8-8-9-9-9-9--11-11-11-11-11-11-11-11-9-9-9-9-8-8-8-8|  
D|------------------------------------------------------------------------|  
A|7-7-7-7-7-7-7-7-6-6-6-6-7-7-7-7--9--9--9--9--9--9--9--9--7-7-7-7-6-6-6-6|  
E|------------------------------------------------------------------------|  

e|-------------------------------------------------|  
B|-------------------------------------------------|  
G|9-9-9-9-9-9-9-9-9-9-9-9-9-9-9-9--13\11--9/11-8/9-|  
D|-------------------------------------------------|  
A|7-7-7-7-7-7-7-7-7-7-7-7-7-7-7-7--11\9---7/9--6/7-|  
E|-------------------------------------------------|  

  Sim eu sei, foi dificil acreditar....  
e|---------------------------------------|  
B|---------------------------------------|  
G|9/11-11-11-9-9-9-13-13-13-9-9-9-9-9-9-9|  
D|---------------------------------------| (3x)  
A|7/9--9--9--7-7-7-11-11-11-7-7-7-7-7-7-7|  
E|---------------------------------------|  

e|-------------|  
B|-------------|  
G|16\14-13-11-9|  
D|-------------|  
A|14\12-11-9--7|  
E|-------------|  

  Eu tentei...  
e|---------------------------------------|  
B|---------------------------------------|  
G|9/11-11-11-9-9-9-13-13-13-9-9-9-9-9-9-9|  
D|---------------------------------------| (2x)  
A|7/9--9--9--7-7-7-11-11-11-7-7-7-7-7-7-7|  
E|---------------------------------------|  

e|-------------|  
B|-------------|  
G|16\14-13-11-9|  
D|-------------|  
A|14\12-11-9--7|  
E|-------------|  

PARTE 2 E Foi difícil saber que era você F#m C#m e não era eu lá, hoje eu A tento apenas ignorar E F#m A gente sabe e se conhece muito bem, C#m o bastante pra A saber onde chegar E Sim, eu sei foi difícil F#m acreditar que um momento D A pode fazer tudo terminar E F#m Eu tentei fui pra você melhor D do que ninguém, nossos sonhos A sempre foram mais alem PARTE 2
  
  A gente sabe e se conhece muito bem...  
e|------------------------------------------------------------------------|  
B|------------------------------------------------------------------------|  
G|9-9-9-9-9-9-9-9-8-8-8-8-9-9-9-9--11-11-11-11-11-11-11-11-9-9-9-9-8-8-8-8|  
D|------------------------------------------------------------------------|  
A|7-7-7-7-7-7-7-7-6-6-6-6-7-7-7-7--9--9--9--9--9--9--9--9--7-7-7-7-6-6-6-6|  
E|------------------------------------------------------------------------|  

e|-------------------------------------------------|  
B|-------------------------------------------------|  
G|9-9-9-9-9-9-9-9-9-9-9-9-9-9-9-9--13\11--9/11-8/9-|  
D|-------------------------------------------------|  
A|7-7-7-7-7-7-7-7-7-7-7-7-7-7-7-7--11\9---7/9--6/7-|  
E|-------------------------------------------------|  

  Sim eu sei, foi dificil acreditar....  
e|---------------------------------------|  
B|---------------------------------------|  
G|9/11-11-11-9-9-9-13-13-13-9-9-9-9-9-9-9|  
D|---------------------------------------| (3x)  
A|7/9--9--9--7-7-7-11-11-11-7-7-7-7-7-7-7|  
E|---------------------------------------|  

e|-------------|  
B|-------------|  
G|16\14-13-11-9|  
D|-------------|  
A|14\12-11-9--7|  
E|-------------|  

 Eu tentei...  
e|---------------------------------------|  
B|---------------------------------------|  
G|9/11-11-11-9-9-9-13-13-13-9-9-9-9-9-9-9|  
D|---------------------------------------| (2x)  
A|7/9--9--9--7-7-7-11-11-11-7-7-7-7-7-7-7|  
E|---------------------------------------|  

  Nosso sonhos   sempre   foram    mais alem  
e|-----------------------------------------------------------------|  
B|-----------------------------------------------------------------|  
G|16-16-14-14-14-13-13-13-11-11-11-8-8-8-11-11-11-9-9-9-9-9-9-9-9-9|  
D|-----------------------------------------------------------------|  
A|14-14-12-12-12-11-11-11-9--9---9-6-6-6-9--9--9--7-7-7-7-7-7-7-7-7|  
E|-----------------------------------------------------------------|  

Interludio: ( E5 )
  
e|----------------------------------------------|  
B|----------------------------------------------|  
G|9-9---9-9---9-9---9-9---9-9---9-9---9-9--9-9--|  
D|----------------------------------------------| 
A|7-7---7-7---7-7---7-7---7-7---7-7---7-7--7-7--|  
E|----------------------------------------------|  
C#m A B Não é que eu queira lembrar de coisas G# ruins C#m A B G# Elas é que cismam em me perseguir C# A Tudo que sonhei pra nós dois E B nunca deixarei pra depois Final: E Sim, eu sei foi difícil F#m acreditar que um momento D A pode fazer tudo terminar E F#m Eu tentei fui pra você melhor D do que ninguém, nossos sonhos A sempre foram mais alem Final:
  
  Sim eu sei, foi dificil acreditar....  
e|---------------------------------------|  
B|---------------------------------------|  
G|9/11-11-11-9-9-9-13-13-13-9-9-9-9-9-9-9|  
D|---------------------------------------| (3x)  
A|7/9--9--9--7-7-7-11-11-11-7-7-7-7-7-7-7|  
E|---------------------------------------|  

e|-------------|  
B|-------------|  
G|16\14-13-11-9|  
D|-------------|  
A|14\12-11-9--7|  
E|-------------|  

 Eu tentei...  
e|---------------------------------------|  
B|---------------------------------------|  
G|9/11-11-11-9-9-9-13-13-13-9-9-9-9-9-9-9|  
D|---------------------------------------| (2x)  
A|7/9--9--9--7-7-7-11-11-11-7-7-7-7-7-7-7|  
E|---------------------------------------|  

  Nosso sonhos   sempre   foram    mais alem  
e|------------------------------------------------------------|  
B|------------------------------------------------------------|  
G|16-16-14-14-14-13-13-13-11-11-11-8-8-8-11-11-11---9---9--9--|  
D|------------------------------------------------------------|  
A|14-14-12-12-12-11-11-11-9--9---9-6-6-6-9--9--9----7---7---7-|  
E|------------------------------------------------------------|  
share this page

See Also: