E-Chords
Elephant Stone

Love The Sinner Hate The Sin(Chords)

Elephant Stone

roll up this ad to continue

Key: Dm
Elephant Stone - Love The Sinner, Hate The Sin 

INTRO (MAIN RIFF) 
                 Dm     F               C       G               Dm      F                C 
e|-----------------------------------------------------------------------------------------------| 
B|-----------------------------------------------------------------------------------------------| 
G|-----------------------------------------------------------------------------------------------| 
D|-------2-0--------------------2-0---------------------2-0----------------2--0-2-0-2-/5-2-------| 
A|-----------3-0-5------------------3-0-3-------------------3-0-5--3-0---------------------------| 
E|-3-5-3------------------3-5-3-------------------3-5-3------------------------------------------| 

  G 
e|-------------------| 
B|-------------------| 
G|-------------------| 
D|-------2-0---------| 
A|-----------3-0-5---| 
E|-3-5-3-------------| 
verse 1 Dm F C All the things you thought that you'd never be G Not a sinner not an enemy Dm F C All the love that you kept in your heart G Was just the love that had torn apart
G Dm F Is this what you want? C G Can this be what you need? Dm F You live your life so wrong C G You live your life in fear
verse 2 Dm F C You're sitting down but you're so out of touch G Tell me what it is that you love so much? Dm F C Was it the way you shared me all of your soul G Or all the freedom of the love you stole?
G Dm F Is this what you want? C G Can this be what you need? Dm F You live your life so wrong C G You live your life in fear
BRIDGE Em Am I can hear your words I think I see their lie Em Am I can hear your songs as the circle in time Dm F Two loves to forget C C/B Am Am/G Love has enough hateness in F G I can hear these words, I'll make them mine MAIN RIFF
G Dm F Is this what you want? C G Can this be what you need? Dm F You live your life so wrong C G You live your life in fear
SOLO/OUTRO Dm F \ 8x C G /
share this page

See Also: