E-Chords
Elaine Pinheiro

Deus É A Chave(Chords)

Elaine Pinheiro

Key: G
Intro Em  C  G  D 
        Em  C  G  D 

Em         C          G 
Sadraque Mesaque e Abdnego 
           D9                  Em    
Foram condenados jogados a fornalha 
                        C 
Por não quererem adorar Deuses 
         G                D     Em 
Foram lançados em meio ao fogo 
          C                      G/B 
E aqueles jovens começaram a adorar a Deus 
      D                 Em 
A louvar ao nome do Senhor 
               C 
E o rei espantado ficou 
            G/B                        D/F# 
Porque não eram mais três homens eram quatro 
                      Em       C  G  D/F#  D 
Mas um deles era anjo do Senhor 



G                             D/F# 
Só Deus é quem pode mudar sua vida 
                              Em 
Só Deus é a chave e tem a solução 
                                 C 
Se em meio ao fogo você também está 
                               G 
Deus manda um anjo para te guardar 
                          D/F# 
Seu nome está no livro da vida 
                          Em 
Então você a Deus pode adorar 
                                  C 
Declare, proclame a benção em sua vida 
                       D/F#      G 
Pois sempre o Senhor está te guardar 

Solo G  Em  C  G  B7   

E|--3---5-3---5-3---5-7-5-3-2-3-------------------------| 
B|----3-----3-----3-------------------------------------| 
G|------------------------------------------------------| 
D|------------------------------------------------------| 
A|------------------------------------------------------| 
E|------------------------------------------------------|
Em C G Sadraque Mesaque e G D/F# Só Deus é quem pode mudar sua vida Em Só Deus é a chave e tem a solução C Se em meio ao fogo você também está G Deus manda um anjo para te guardar D/F# Seu nome está no livro da vida Em Então você a Deus pode adorar C Declare, proclame a benção em sua vida D G Pois sempre o Senhor está te guardar D/F# Em A te guardar, a te guardar C G Pois sempre o Senhor está te guardar G Está a te guardar Solo
E|--19-22-17--22-15-------------15----------------------| 
B|------------------15-13-12-13-------------------------| 
G|------------------------------------------------------| 
D|----------------------------------12-10-9-7-5---------| 
A|------------------------------------------------------| 
E|------------------------------------------------------|

roll up this ad to continue

share this page

See Also: