E-Chords
Dionysia

Carried Away(Chords)

Dionysia

Key: Am
Carried Away by Dionysia 

Am                     C                    F 
e|----------------|  e|----------------|  e|----------------| 
B|------1---------|  B|------1---------|  B|------1---------| 
G|----2-----2---2-|  G|----0-----0---0-|  G|----2-----2---2-| 
D|------------2---|  D|------------2---|  D|------------3---| 
A|0---0---0---0---|  A|3---3---3---3---|  A|3---3---3---3---| 
E|----------------|  E|----------------|  E|----------------| 

E                      G 
e|----------------|  e|----------------|   
B|------0---------|  B|------0---------| 
G|----1-----1---1-|  G|----0-----0---0-| 
D|------------2---|  D|------------0---| 
A|2---2---2---2---|  A|2---2---2---2---|    
E|----------------|  E|----------------|
\ - single strum ' fifth string for one beat Intro: Am Am F C Am Am F C Am Am F C Well my mama she once told me set your sights and set them high Am Am F C Cause in the morning you may need them if you're feeling high and dry Am Am F C And while your demons they may follow, let your shadows sleep tonight Am Am F C\ And in the comfort of the setting sun don't hesitate to try and get Chorus: Am F C C Carried away, carried away now E F C G Let's get carried away, carried away now o-oh Am F C G All your morning ghosts are waiting just to keep your fears at bay Am F C G Let's get carried away, carried away now o-oh o-oh oh ^ |
Bridge:      |  = down strum   v  = up strum 
  Am                                                 C\ 
e|----------------|----------------|----------------|0---------------| 
B|---1^-|---^-|-^-|---1^-|---^-|-^-|---1^-|---^-|-^-|1---------------| 
G|---2|-|---|-|-|-|---2|-|---|-|-|-|---2|-|---|-|-|-|0---------------| 
D|---2|-|---|-|-|-|---2|-|---|-|-|-|---2|-|---|-|-|-|2---------------| 
A|0--0|-v---|-v-|-|0--0|-v---|-v-|-|0--0|-v---|-v-|-|3---------------| 
E|----------------|----------------|----------------|0---------------| 
Am Am F C And I often find my comforts when I'm hurting for the line Am Am F C That'll separate this moment from a broken state of mind Am Am F C And this hell that I've been living all day and night Am Am F C\ I will bend the bars and break the locks until I feel alive Am F C C Let's get carried away, carried away now E F C G Let's get carried away, carried away now o-oh Am F C G All your morning ghosts are waiting just to keep your fears at bay Am F C C G Let's get carried away, carried away now o-o-
Interlude: 
  G       C        G                \                Am 
e|----------------|----------------|3---------------|----------------| 
B|------0---------|------0---0---0-|0---------------|------1---------| 
G|----0-----0---0-|------0---0---0-|0---------------|----2-----2---2-| 
D|----------2---2-|----------------|0---------------|------------2---| 
A|2---2---3---3---|2---2---2---2---|2---------------|0---0---0---0---| 
E|----------------|----------------|3---------------|----------------| 
  o--     o--      oh-- 
                   C                G                Am 
e|----------------|----------------|----------------|----------------| 
B|------1---------|------1---------|--------0-0---0-|------1---------| 
G|----2-----2---2-|----0-----0---0-|------0-----0---|----2-----2---2-| 
D|------------2---|--------2---2---|----------------|------------2---| 
A|0---0---0---0---|3---3---3---3---|2---2---2---2---|0---0---0---0---| 
E|----------------|----------------|----------------|----------------|  
  F                C                G                Am 
e|----------------|----------------|----------------|----------------| 
B|------1---------|------1---------|------0---------|------1---------| 
G|----2-----2---2-|----0-----0---0-|----0-----0---0-|----2-----2---2-| 
D|------------3---|------------2---|------------0---|------------2---| 
A|3---3---3---3---|3---3---3---3---|2---2---2---2---|0---0---0---0---| 
E|----------------|----------------|----------------|----------------| 
                                                     o--     o--  
  Am                       C        G                Am 
e|----------------|----------------|----------------|----------------| 
B|------1-1-----1-|------1---------|------0---------|------1---------| 
G|2---2-----2-----|----2-----0---0-|----0-----0---0-|----2-----2---2-| 
D|------------2---|------------2---|------------0---|------------2---| 
A|0---0---0---0---|0---0---3---3---|2---2---2---2---|0---0---0---0---| 
E|----------------|----------------|----------------|----------------| 
  o--     o--      oh      o--      o--     oh       o--     o-- 
F C G Am o-- o-- oh o-- o-- oh o-- o-- (x2) F C G o-- o-- oh o-- oh Am F C C Carried away, carried away now E F C G Let's get carried away, carried away now o-oh Am F C G All your morning ghosts are waiting just to keep your fears at bay Am F C G Let's get carried away, carried away now Am F C G Let's get carried away, carried away now Am F C G Let's get carried away, carried away now Am Am C Let's get carried away, carried away now

roll up this ad to continue

share this page

See Also: