E-Chords
Death Of An Era

The Global Movement(Chords)

Death Of An Era

Key: A
 
(A,E,A,D,G,B,E) 

---------------------------------------------------------------------- 
---------------------------------------------------------------------- 
-15--------15----15/16-----16----16/19-----19----19/13----13----13/15- 
---------------------------------------------------------------------- 
----13--13----13--------14----14--------17----17-------11----11------- 
---------------------------------------------------------------------- 
---------------------------------------------------------------------- 

--------------------------------------------------------------- 
--------------------------------------------------------------- 
----15----15/16-----16----16/19-----19----19/13----13----13/15- 
--------------------------------------------------------------- 
-13----13--------14----14--------17----17-------11----11------- 
--------------------------------------------------------------- 
--------------------------------------------------------------- 
  Lead and Rythm Guitar 
------------------------------------------------------------ 
------------------------------------------------------------ 
------------------------------------------------------------ 
------------------------------------------------------------ 
------------------------------------------------------------ 
------------------------------------------------------------ 
-1-00-1-2-00-1-00-1-2-00-1-00-1-00-1-2-1-00-1-2-00-1-00-1-2- 
PM  ..     ..   ..     ..   ..   ..       ..     ..   .. 

--------------------------- 
--------------------------- 
-(15)---(16)---(19)---(13)- 
--------------------------- 
--------------------------- 
--------------------------- 
--------------------------- 
  Lead and Rythm Guitar 
----------------------------------------------------------------------------- 
----------------------------------------------------------------------------- 
----------------------------------------------------------------------------- 
----------------------------------------------------------------------------- 
----------------------------------------------------------------------------- 
----------------------------------------------------------------------------- 
-1-00-1-2-00-1-00-1-2-00-1-00-1-00-1-2-1-00-1-2-00-1-00-1-2-00-1-00-1-2-00-1- 
PM  ..     ..   ..     ..   ..   ..       ..     ..   ..     ..   ..     .. 

--------------------------- 
--------------------------- 
-(15)---(16)---(19)---(13)- 
--------------------------- 
--------------------------- 
--------------------------- 
--------------------------- 
  Lead and Rythm Guitar 
----------------------------------------------------------------------------- 
----------------------------------------------------------------------------- 
----------------------------------------------------------------------------- 
----------------------------------------------------------------------------- 
----------------------------------------------------------------------------- 
----------------------------------------------------------------------------- 
-1-00-1-2-00-1-00-1-2-00-1-00-1-00-1-2-1-00-1-2-00-1-00-1-2-00-1-00-1-2-00-1- 
PM  ..     ..   ..     ..   ..   ..       ..     ..   ..     ..   ..     .. 

--------------------------- 
--------------------------- 
-(15)---(16)---(19)---(13)- 
--------------------------- 
--------------------------- 
--------------------------- 
--------------------------- 
  Lead and Rythm Guitar 
------------------------------------------------------------------------------------------------- 
------------------------------------------------------------------------------------------------- 
------------------------------------------------------------------------------------------------- 
------------------------------------------------------------------------------------------------- 
------------------------------------------------------------------------------------------------- 
------------------------------------------------------------------------------------------------- 
-13-00-13-14-00-13-00-13-14-00-13-00-13-00-13-14-13-00-13-14-00-13-00-13-14-00-13-00-13-14-00-13- 
PM   ..       ..    ..       ..    ..    ..          ..       ..    ..       ..    ..       .. 

-------------------- 
-------------------- 
-(15)---(16)---(19)- 
-------------------- 
-------------------- 
-------------------- 
-------------------- 
  Lead and Rythm Guitar 
------------------------------------------------------------ 
------------------------------------------------------------ 
------------------------------------------------------------ 
------------------------------------------------------------ 
------------------------------------------------------------ 
------------------------------------------------------------ 
-1-00-1-2-00-1-00-1-2-00-1-00-1-00-1-2-1-00-1-2-00-1-00-1-2- 
PM  ..     ..   ..     ..   ..   ..       ..     ..   ..      

--------------------------- 
--------------------------- 
-(15)---(16)---(19)---(13)- 
--------------------------- 
--------------------------- 
--------------------------- 
--------------------------- 
  Lead and Rythm Guitar 
----------------------------------------------- 
--------x-x-x------x-x-x--------x-x-x---------- 
--------x-x-x------x-x-x--------x-x-x---------- 
--------x-x-x------x-x-x--------x-x-x---------- 
-1-1-11-x-x-x-1-11-x-x-x-1-1-11-x-x-x-1-11-1-2- 
-1-1-11-------1-11-------1-1-11-------1-11-1-2- 
-1-1-11-------1-11-------1-1-11-------1-11-1-2- 

--------------------------- 
--------------------------- 
-(15)---(16)---(19)---(13)- 
--------------------------- 
--------------------------- 
--------------------------- 
--------------------------- 
  Lead and Rythm Guitar 
----------------------------------------------- 
--------x-x-x------x-x-x--------x-x-x---------- 
--------x-x-x------x-x-x--------x-x-x---------- 
--------x-x-x------x-x-x--------x-x-x---------- 
-1-1-11-x-x-x-1-11-x-x-x-1-1-11-x-x-x-1-11-1-2- 
-1-1-11-------1-11-------1-1-11-------1-11-1-2- 
-1-1-11-------1-11-------1-1-11-------1-11-1-2- 

--------------------------- 
--------------------------- 
-(15)---(16)---(19)---(13)- 
--------------------------- 
--------------------------- 
--------------------------- 
--------------------------- 
  Lead and Rythm Guitar 
------------------------------------------------------------------------------ 
------------------------------------------------------------------------------ 
------------------------------------------------------------------------------ 
------------------------------------------------------------------------------ 
------------------------------------------------------------------------------ 
------------------------------------------------------------------------------ 
-1-00-1-2-00-1-00-1-2-00-1-00-1-00-1-2-1-00-1-2-00-1-00- 1-2-00-1-00-1-2-00-1- 
PM  ..     ..   ..     ..   ..   ..       ..     ..   ..     ..   ..     .. 

-------------------- 
-------------------- 
-(15)---(16)---(19)- 
-------------------- 
-------------------- 
-------------------- 
-------------------- 
  Lead and Rythm Guitar 
-------------------------------------------------------- 
-------------------------------------------------------- 
-------------------------------------------------------- 
-------------------------------------------------------- 
-------------------------------------------------------- 
-------------------------------------------------------- 
-1-00-1-2-00-1-00-1-2-00-1-00-1-00-1-2-1-00-1-2-00-1-00- 
PM  ..     ..   ..     ..   ..   ..       ..     ..   ..  

-------------------- 
-------------------- 
-------------------- 
-------------------- 
-------------------- 
-------------------- 
-1-2-00-1----------- 
PM   .. 
  Lead and Rythm Guitar 
-------------------- 
-------------------- 
-------------------- 
-------------------- 
-------------------- 
-------------------- 
-----------1-2-00-1- 
PM              .. 

------------------------------------------------------------------------------ 
------------------------------------------------------------------------------ 
------------------------------------------------------------------------------ 
------------------------------------------------------------------------------ 
------------------------------------------------------------------------------ 
-6-6-------1-------------------4---4-7-6-6-------1---------------------------- 
-----4-2-0---4-2-0-1-00-1-00-1---1---------4-2-0---4-2-0-1-00-1-00-1-2-00-5-2- 
PM    . .     . .     ..   ..     .         . .     . .     ..   ..     .. 

------------------------------------------------------------------------------ 
------------------------------------------------------------------------------ 
------------------------------------------------------------------------------ 
------------------------------------------------------------------------------ 
------------------------------------------------------------------------------ 
-6-6-------1-------------------4---4-7-6-6-------1---------------------------- 
-----4-2-0---4-2-0-1-00-1-00-1---1---------4-2-0---4-2-0-1-00-1-00-1-2-00-5-2- 
PM    . .     . .     ..   ..     .         . .     . .     ..   ..     .. 

----------------------3*---------------------------3*-- 
----------------------3*---------------------------3*-- 
----------------------3*---------------------------3*-- 
----------------------3*---------------------------3*-- 
------------------------------------------------------- 
-0-0-0-000-0-0--000-0----0-0--0-0-0-000-0-0--000-0----- 
-0-0-0-000-0-0--000-0----0-0--0-0-0-000-0-0--000-0----- 
PM. . . ... . .  ... .    . .  . . . ... . .  ... . 

----------------------3*---------------------------3*-- 
----------------------3*---------------------------3*-- 
----------------------3*---------------------------3*-- 
----------------------3*---------------------------3*-- 
------------------------------------------------------- 
-0-0-0-000-0-0--000-0----0-0--0-0-0-000-0-0--000-0----- 
-0-0-0-000-0-0--000-0----0-0--0-0-0-000-0-0--000-0----- 
PM. . . ... . .  ... .    . .  . . . ... . .  ... . 

----------------------------------------------------- 
----------------------------------------------------- 
----------------------------------------------------- 
----------------------------------------------------- 
---------------1-------2----------------------------- 
-------000-0-0-----4------0-0-0-000-0--0-0-0-000-0-0- 
-3-1-0-000-0-0---1---2----0-0-0-000-0--0-0-0-000-0-0- 
PM      ... . .            . . . ... .  . . . ... . . 

--------------------------------------------- 
--------------------------------------------- 
--------------------------------------------- 
--------------------------------------------- 
---------------1-------2--------------------- 
-------000-0-0-----4------0-0-0-000-0--0-0-0- 
-3-1-0-000-0-0---1---2----0-0-0-000-0--0-0-0- 
PM      ... . .            . . . ... .  . . .  

----------------------------- 
----------------------------- 
----------------------------- 
----------------------------- 
-1-----------------------1--- 
----------------------------- 
---4-1-4-1-4---------------4- 
PM   . . . .                  
  Lead and Rythm Guitar 
----------------------------- 
----------------------------- 
----------------------------- 
----------------------------- 
-------------1-----------1--- 
----------------------------- 
---------------4-1-4-1-4---4- 
PM                . . . . 

------------------------------------------------------------------------- 
------------------------------------------------------------------------- 
------------------------------------------------------------------------- 
------------------------------------------------------------------------- 
-1-----------1-----------1-------2-----------2---5-----------6----------- 
------------------------------------------------------------------------- 
---4-1-4-1-4---4-1-4-1-4---4-1-4---5-2-5-2-5---5---8-5-8-5-8---9-6-9-6-9- 
PM    . . . .     . . . .     . .     . . . .   .     . . . .     . . . . 

----------------------------------------------------------- 
----------------------------------------------------------- 
----------------------------------------------------------- 
----------------------------------------------------------- 
-1-----------1-----------1-------2-----------2-(5)-(2)-(1)- 
----------------------------------------------------------- 
---4-1-4-1-4---4-1-4-1-4---4-1-4---5-2-5-2-5--------------- 
PM    . . . .     . . . .     . .     . . . .    

------------------------------------------------------------------------- 
------------------------------------------------------------------------- 
------------------------------------------------------------------------- 
------------------------------------------------------------------------- 
-1-----------1-----------1-------2-----------2---5-----------6----------- 
------------------------------------------------------------------------- 
---4-1-4-1-4---4-1-4-1-4---4-1-4---5-2-5-2-5---5---8-5-8-5-8---9-6-9-6-9- 
PM    . . . .     . . . .     . .     . . . .   .     . . . .     . . . . 

----------------------------------------------------------- 
----------------------------------------------------------- 
----------------------------------------------------------- 
----------------------------------------------------------- 
-1-----------1-----------1-------2-----------2-(5)-(2)-(1)- 
----------------------------------------------------------- 
---4-1-4-1-4---4-1-4-1-4---4-1-4---5-2-5-2-5--------------- 
PM    . . . .     . . . .     . .     . . . .    

--------------------------------------------------------------------------------------------------------- 
--------------------------------------------------------------------------------------------------------- 
--------------------------------------------------------------------------------------------------------- 
--------------------------------------------------------------------------------------------------------- 
-1------------4---------1---------------4-----5---------1------------4---------1----1----4-----5--------- 
----------------------------000-000-000-------------000----------------------------------------------000- 
---4-0-/5-1-0---7-4-1-4---4-000-000-000---7-4---8-5-000---4-0-/5-1-0---7-4-1-4---4----4----7-4---8-5-000- 
PM                           ... ... ...             ...                                              ... 

--------------------------------------------------------------------------------------------------------- 
--------------------------------------------------------------------------------------------------------- 
--------------------------------------------------------------------------------------------------------- 
--------------------------------------------------------------------------------------------------------- 
--------------4---------1---------------4-----5---------1------------4---------1----1----4-----5--------- 
----------------------------000-000-000-------------000----------------------------------------------000- 
----------------7-4-1-4---4-000-000-000---7-4---8-5-000---4-0-/5-1-0---7-4-1-4---4----4----7-4---8-5-000- 
PM                           ... ... ...             ...                                              ... 

-------------------------------------------------------------------------- 
-------------------------------------------------------------------------- 
-------------------------------------------------------------------------- 
-------------------------------------------------------------------------- 
-------------------------------------------------------------------------- 
-000---000-000----00000--000-000---000----000---000-000----00000--000-000- 
-000---000-000----00000--000-000---000----000---000-000----00000--000-000- 
PM...   ... ...    .....  ... ...   ...    ...   ... ...    .....  ... ...   

-------------------------------------------------------------------------- 
-------------------------------------------------------------------------- 
-------------------------------------------------------------------------- 
-------------------------------------------------------------------------- 
-------------------------------------------------------------------------- 
-000---000-000----00000--000-000---000----000---000-000----00000--000-000- 
-000---000-000----00000--000-000---000----000---000-000----00000--000-000- 
PM...   ... ...    .....  ... ...   ...    ...   ... ...    .....  ... ...   

----------------------------------------------------- 
----------------------------------------------------- 
----------------------------------------------------- 
----------------------------------------------------- 
---------------1-------2----------------------------- 
-------000-0-0-----4------0-0-0-000-0--0-0-0-000-0-0- 
-3-1-0-000-0-0---1---2----0-0-0-000-0--0-0-0-000-0-0- 
PM      ... . .            . . . ... .  . . . ... . . 

-------------------------------------- 
-------------------------------------- 
-------------------------------------- 
-------------------------------------- 
---------------1-------2-------------- 
-------000-0-0-----4------0-0-0-000-0- 
-3-1-0-000-0-0---1---2----0-0-0-000-0- 
PM      ... . .            . . . ... .   

----------------------- 
----------------------- 
-15--------15----15/16- 
----------------------- 
----13--13----13------- 
----------------------- 
----------------------- 

--------------------------- 
--------------------------- 
-(15)---(16)---(19)---(13)- 
--------------------------- 
--------------------------- 
--------------------------- 
--------------------------- 
  Lead and Rythm Guitar 
----------------------------------------------------------------------------- 
----------------------------------------------------------------------------- 
----------------------------------------------------------------------------- 
----------------------------------------------------------------------------- 
----------------------------------------------------------------------------- 
----------------------------------------------------------------------------- 
-1-00-1-2-00-1-00-1-2-00-1-00-1-00-1-2-1-00-1-2-00-1-00-1-2-00-1-00-1-2-00-1- 
PM  ..     ..   ..     ..   ..   ..       ..     ..   ..     ..   ..     .. 

--------------------------- 
--------------------------- 
-(15)---(16)---(19)---(13)- 
--------------------------- 
--------------------------- 
--------------------------- 
--------------------------- 
  Lead and Rythm Guitar 
----------------------------------------------------------------------------- 
----------------------------------------------------------------------------- 
----------------------------------------------------------------------------- 
----------------------------------------------------------------------------- 
----------------------------------------------------------------------------- 
----------------------------------------------------------------------------- 
-1-00-1-2-00-1-00-1-2-00-1-00-1-00-1-2-1-00-1-2-00-1-00-1-2-00-1-00-1-2-00-1- 
PM  ..     ..   ..     ..   ..   ..       ..     ..   ..     ..   ..     .. 

--------------------------- 
--------------------------- 
-(15)---(16)---(19)---(13)- 
--------------------------- 
--------------------------- 
--------------------------- 
--------------------------- 
  Lead and Rythm Guitar 
------------------------------------------------------------------------------------------------- 
------------------------------------------------------------------------------------------------- 
------------------------------------------------------------------------------------------------- 
------------------------------------------------------------------------------------------------- 
------------------------------------------------------------------------------------------------- 
------------------------------------------------------------------------------------------------- 
-13-00-13-14-00-13-00-13-14-00-13-00-13-00-13-14-13-00-13-14-00-13-00-13-14-00-13-00-13-14-00-13- 
PM   ..       ..    ..       ..    ..    ..          ..       ..    ..       ..    ..       .. 

--------------------------- 
--------------------------- 
-(15)---(16)---(19)---(13)- 
--------------------------- 
--------------------------- 
--------------------------- 
--------------------------- 
  Lead and Rythm Guitar 
----------------------------------------------------------------------------- 
----------------------------------------------------------------------------- 
----------------------------------------------------------------------------- 
----------------------------------------------------------------------------- 
----------------------------------------------------------------------------- 
--------------------------------------------------------------------1-2----1- 
-1-00-1-2-00-1-00-1-2-00-1-00-1-00-1-2-1-00-1-2-00-1-00-1-2-00-1-00-1-2-00-1- 
PM  ..     ..   ..     ..   ..   ..       ..     ..   ..     ..   ..     .. 

roll up this ad to continue

share this page

See Also: