E-Chords
Daniele Stefani

Punto Di Partenza(Chords)

Daniele Stefani

Key: F#m7

roll up this ad to continue

        
 
e------------------------------------ 
B------------5-------4------2------ 
G---------4----4------4-------4---- 
A------4----------4-----4--------4-         1 vez 
D---2------------------------------- 
E------------------------------------ 

e-------------------------------------     
B------------5-------4------2------       
G---------4----4------4-------4----         3 vezes 
A------4----------4-----4--------4-       
D------------------------------------     
E---2--------------------------------
F#m7 E B E siamo ancora al punto di partenza F#m7 E B Per stare insieme non basta la speranza F#m7 E B In queste sere di amori artificiali F#m7 E B Per non stare soli pensiamo domani C#m G#m7 A9 Io e te, perché non voliamo più liberi C#m7 G#m7 A9 Io e te, di cosa siamo colpevoli F#m7 E Quali sono i nostri limiti, siamo consapevoli A C#m7 Cosa stiamo diventando, io e te F#m7 E B Ma siamo ancora al punto di partenza F#m7 E B Il cielo vola ma è solo apparenza F#m7 E B In queste sere di scelte complicate F#m7 E B Togliamo il peso viviamo giornate C#m G#m7 A9 Io e te, perché non voliamo più liberi C#m7 G#m7 A9 Io e te, di cosa siamo colpevoli F#m7 E Quali sono i nostri limiti, siamo consapevoli A C#m7 Cosa stiamo diventando, io e te G D9 A9 Cerco nella perfezione il perfeito, ma cos´è? G D9 Si nasconde tra um sorriso e um difetto A9 B9 Nei perché, cosa c´è... C#m G#m7 A9 Io e Te perché non voliamo più liberi C#m7 G#m7 A9 Io e Te di cosa siamo colpevoli F#m7 E Ma non contano più i limiti, siamo consapevoli A C#m7 Basta poco per volare Io e Te A9 Io e Te E9 Io e Te
share this page

See Also: