E-Chords
Conde do Forró

Faz Uma Loucura Por Mim(Chords)

Conde do Forró

roll up this ad to continue

Key: Bm
Intro Bm  G  D  A 
        Bm  G  D  A 

     Bm                               G                         D 
E|---------------------------------------------------------------| 
B|----7------------7-7----------7------8-----------8-8----8-10-7-| 
G|----7--------7------------7----------7-------7---------------7-| 
D|----9----9------------9--------------9---9------------9------7-| 
A|------------------------------------10-----------------------5-| 
E|----7----------------------------------------------------------|
                       A 
E|---------------------------------------------------------------| 
B|------7-7---------7---5-------------5--------------------------| 
G|---7-----------7------6-----7---6----7p6-----------------------| 
D|-7-----------7--------7-----------------h7---------------------| 
A|---------------------------------------------------------------| 
E|----------------------5----------------------------------------|
Bm Faz uma loucura por mim G Diz que me ama pelo menos uma vez Em7 Me manda flores, chocolates ou talvez F# F#7 Pergunta se hoje eu cortei o meu cabelo Bm Faz uma loucura por mim G Acorda cedo e prepara o meu café Em7 Manda uma mensagem me dizendo como é F# F#7 Tão importante eu estar na sua vida G Em7 Bm A Sinto você tão diferente meu amor G Em7 F# F#7 Se pra você, tudo aos poucos se acabou G Em7 Bm A O que me dói é ver você aqui G Em7 F# F#7 Bm Mas o seu pensamento não está em mim Refrão G A Me beija na boca Bm Me chama de meu bebê G A Não deixa nada separar eu e você Bm G A Me beija na boca Bm Me chama de meu bebê G A Não deixa nada separar eu e você ( Bm G A Bm G A ) G Em7 Bm A Sinto você tão diferente meu amor G Em7 F# F#7 Se pra você, tudo aos poucos se acabou G Em7 Bm A O que me dói é ver você aqui G Em7 F# F#7 Bm Mas o seu pensamento não está em mim G A Me beija na boca Bm Me chama de meu bebê G A Não deixa nada separar eu e você Bm G A Me beija na boca Bm Me chama de meu bebê G A Bm Não deixa nada separar G A Me beija na boca Bm Me chama de meu bebê G A Bm G A Bm Não deixa nada separar eu e você
share this page

See Also: