Christine D'clario

Gracia Tan Gloriosa(Chords)

Christine D'clario

Key: C#

roll up this ad to continue

	        Intro: 
    C#               A#m    C#                G# 
e---------4------------------------4------------------- 
B--------------7----6--6----------------7---6---4------ 
G----6------------------------6------------------------ 
D------------------------------------------------------ 
A----4------------------------4------------------------ 
E----------------------6------------------------4------ 

   C#            A#m      G# 
e------4-------------------------- 
B-----------7--6--6--------------- 
G---6---------------------6-6s8--- 
D--------------------------------- 
A---4----------------------------- 
E-----------------6--------------- 
C G/B Am F Dm G Bajo la cruz del salvador, mi afrenta no se puede esconder C F Dm Am F G C Brilló al fin la redención, su perfección mi cruz llevó, gracia tan glorioooosa Estrofe II C G/B Am F Dm G Rasgó el velo con su amor, corooona de dolor llevó C F Dm C Am F G C La ley se dió a la libertad, para toda la humanidad, gracia tan glorioooosa Pre- Refrão G G/F Em F G Am C Y oooh (y oooh) la gloria del amor de Dios, rodeando mi entrega G G/F Em F G Y séee (y séeee) que siempre aceptado soy
C F Am G //Refrãonado, en gloria digno es el señor C F Am G de toda gloria, por siempre Santo es el Señor//
e----9---------------------9----------------------9--------------------- 
B------9---7----6--6---------9------7-6-4----------9----7-6-6----------- 
G---------------------------------------------------------------6--6s8--
Estrofe III C G/B Am F Dm G Triunfantes te adoramos Rey, cantando al justo Dios de amor C F Dm C Am F G C Y todo ojo lo verá, no merecíamos su amor, gracia tan glorioooosa Pre-Refrão Refrão Estrofe IV C G/B Am F Dm G Glorioso el día en que veré, la faz de aquel que me compró, C F Dm Am F G C Caeré postrado a sus pies y eternamente reinaré, gracia tan glorioooosa F G C G C Gracia tan glorioooosa, aah aah aah oooohh
C F Am G //Refrãonado, en gloria digno es el señor C F Am G de toda gloria, por siempre Santo es el Señor//
Final
e----9---------------------9----------------------9--------------------- 
B------9---7----6--6---------9------7-6-4----------9----7-6-6----------- 
G---------------------------------------------------------------6--6s8-- 

Written by Soluciones Worship

See Also: