E-Chords
Ceremonya

Faço Nova Todas As Coisas(Chords)

Ceremonya

roll up this ad to continue

Key: Dm
Intro: C  Dm  C  Dm  G  F# (2x) Dm 

E|--------------------------------------------------------------------------- 
B|---------------------------------------------------------------8-7--------- 
G|--------------------------------------------------------------7-7---------- 
D|--------------------------------------------------------------------------- 
A|-----3-3-3-5-5-5-5-5-5-5-5--------3-3-3-5-5-5-5-5-5-5-5-------------------- 
E|--------------------------------------------------------------------------- 

E|--------------------------------------------------------------------------- 
B|--------------------------------------------------------------------------- 
G|--------------------------------------------------------------------------- 
D|--------------------------------------------------------------------------- 
A|-----3-3-3-5-5-5-5-5-5-5-5------3-3-3-5-5-5-5-5-5-5-5---------------------- 
E|--------------------------------------------------------------------------- 


E|-----------------15-15-------------------15-15-14-------------------------- 
B|-----15-15-14----------14----15-15-14-------------------------------------- 
G|--------------------------------------------------------------------------- 
D|--------------------------------------------------------------------------- 
A|--------------------------------------------------------------------------- 
E|---------------------------------------------------------------------------
Dm É vida que brota da vida C É fruto que cresce do amor G/B É vida que vence a morte Bb É vida que vem do Senhor Dm É vida que brota da vida C É fruto que cresce do amor G/B É vida que vence a morte Bb É vida que vem do Senhor (Faz o riff da introdução) C Dm C Dm Eis/ que faço nova todas as coisas yeah C Dm G F# Que faço nova todas as coisas yeah C Dm C Dm Que faço nova todas as coisas faço tudo de novo porque sou Teu REi C Dm C Dm Eis que faço nova todas as coisas yeah C Dm G F# Que faço nova todas as coisas yeah C Dm C Dm Dm Que faço nova todas as coisas faço tudo de novo porque sou Teu REi Deixei o sepulcro vazio A morte não me segurou A pedra que então me prendia No terceiro dia rolou Deixei o sepulcro vazio A morte não me segurou A pedra que então me prendia No terceiro dia rolou Refrão Eu hoje lhe dou vida nova Renovo em ti o amor Lhe dou uma nova esperança Tudo que era velho passou Eu hoje lhe dou vida nova Renovo em ti o amor Lhe dou uma nova esperança Tudo que era velho passou Refrão
share this page

See Also: