E-Chords
Canciones De Rondalla

El Maderense(Chords)

Canciones De Rondalla

roll up this ad to continue

Key: A
 YosoydeCiudadMaderosoymaderense 

E------------------------------- 
B-----------0-2-2-0-3-0-2------- 
G---2-2-1-2---------------2----- 
D-2----------------------------- 
 ysoyvecinodelmarLa briza me da de frente 
E-----------0-2--2-2-2----------- 
B---3-3-2-3------------3-0---- 
G-2------------------------2-2-1- 
D---------------------------- 
A E Yo soy de Ciudad Madero A A7 soy maderense D y soy vecino del mar E la briza me da de frente la briza me da de frente E7 A A7 cuando me pongo a cantar A E Soy vecino de la barra A A7 cerca del río D no lejos de la bocana E donde tengo yo mi hogar alumbrado por la luna E7 A A7 y el faro de Miramar A7 D Ay la la la la lay la láa A soy petrolero E Ay la la la la láaa A viva Madero (2veces) (Arreglo del Violín) A E Nací en este rinconcito A A7 de Tamaulipas D donde el Pánuco regó E con sus aguas del amor cosechando muchas flores E7 A lindas rosas en botón A E tengo apartada una de ellas A A7 por La Galeana D y en el Siete y Medio vive E la que es dueña de mi amor megustamucho la de la Obrera E7 A A7 que es en verdad un primor D Ay la la la la lay la láa... (2 veces)
share this page

See Also: