E-Chords
Broken Social Scene

Hotel(Chords)

Broken Social Scene

roll up this ad to continue

Key: Am
Intro 
Am 
Am Fmaj7 (2x) 

verse 1 
Am 
 Disappear like I come in your world 
Fmaj7 
Five is a number that I dream about 
Am 
 It looks like it could've been time 
    Fmaj7 
But that is a word that I dream about 

Pre-Chorus 
Am                Fmaj7 
 Oh, felt good to fall life down 
Am                       Fmaj7 
Oh, I think you like it, laughed when you came down 
Am              Fmaj7 
Oh, I love the lights that don't turn you to face it 
Am                   Fmaj7 
Oh, you can marry my mom but you can't get the feel 

Chorus 
Em  F 
Em  F  G 
  Hotel 

Instrumental 
Am 
Am Fmaj7 

verse 2 
Am 
Disappear like a corner in the wall 
Fmaj7 
Five is a number that I dream about 
Am 
Sleep looks like a mescaline sun 
    Fmaj7 
But calm is a word that I dream about 

Pre-Chorus 
Am                Fmaj7 
 Oh, felt good to fall life down 
Am                        Fmaj7 
Oh, I think you like it, laughed when you came down 
Am              Fmaj7 
Oh, I love the lights that don't turn you to face it 
Am                   Fmaj7 
Oh, you can marry my mom but you can't get the feel 

Em F Hotel Em F G Hotel
Outro
    G          G 
e|----------------| 
B|--3-------------| 
G|--4-------------| 
D|--5----2-0------| 
A|-----------3----| 
E|-------------3--| 

            Am         Am         G           G   4x 
e|----------------------------------------------| 
B|----------------------------------------------| 
G|--5-4-0---2--5-4-0------5-4-0-----------------| 
D|--------2------------2---------h2--0-2-0------| 
A|-----------------------------------------3----| 
E|-------------------------------------------3--|
share this page

See Also: