Blink-182

Childhood(Chords)

Blink-182

Key: C

roll up this ad to continue

	        Intro 

   C                    C7M 
E|-----------------------------------------------------------| 
B|-----------------------------------------------------------| 
G|-5-5-5-5-5-5-5-5-5-5--4-4-4-4-4-4-4-4-4-4------------------| 
D|-----------------------------------------------------------| 
A|-----------------------------------------------------------| 
E|-----------------------------------------------------------|
   Dm                   Fm 
E|-----------------------------------------------------------| 
B|----------------------9--9--9--9--9--9--9--9--9--9--9------| 
G|-7-7-7-7-7-7-7-7-7-7--10-10-10-10-10-10-10-10-10-10-10-----| 
D|-----------------------------------------------------------| 
A|-----------------------------------------------------------| 
E|-----------------------------------------------------------|
Primeira Parte
E|-----------------------------------------------------------| 
B|-----------------------------------------------------------| 
G|-----------------------------------------------------------| 
D|-10-10-10-10-10-10-10-10-10-10-10-10-10-10--12-12----------| 
A|-----------------------------------------------------------| 
E|-----------------------------------------------------------|
C I see signs up in the sky Disappear before my eyes F Fm Woah woah C Guess we're all desensitized Forgot the meaning of our lives F Fm Woah woah

Pre-Chorus

    Dm   F     C5   C7M  Dm   E5 
E|------------------0----------------------------------------| 
B|--6----6----------0----6-----------------------------------| 
G|--7----5-----5----5----7----9------------------------------| 
D|--7----7-----5---------7----9------------------------------| 
A|--5----8-----3---------5----7------------------------------| 
E|-----------------------------------------------------------|
Dm What's going on with me F Everybody seems C5 C7M So lost I wanna leave Dm E5 2023 Who the fuck are we
   C 
E|-----------------------------------------------------------| 
B|-----------------------------------------------------------| 
G|----9----9----9----9-----7----7----7----7------------------| 
D|-10---10---10---10----10---10---10---10--------------------| 
A|-----------------------------------------------------------| 
E|-----------------------------------------------------------|
   F 
E|-----------------------------------------------------------| 
B|-----------------------------------------------------------| 
G|----10----10----10----10----10----10----12----12-----------| 
D|-10----10----10----10----10----10----10----10--------------| 
A|-----------------------------------------------------------| 
E|-----------------------------------------------------------|
C Remember when we were young and we'd laugh at everything F Got caught up in a world that forgot how to dream C I'd never thought we'd end up here We're back in time to the best years F Remember when we were young We thought we knew everything F5 G5 Where did our childhood go C5 I wanna know F5 G5 Where did our childhood go C5 I wanna know
E|-----------------------------------------------------------| 
B|-----------------------------------------------------------| 
G|-12/5--5~~~~----7/5--5~~~~---------------------------------| 
D|-x--x--x--------x-x--x-------------------------------------| 
A|-10/3--3~~~~----5/3--3~~~~---------------------------------| 
E|-----------------------------------------------------------|
C We just need some time away Take me back to yesterday F Fm Woah woah C Why is everyone afraid To be themselves not imitate F Fm Woah woah

Pre-Chorus

Dm What's going on with me F Everybody seems C5 C7M So lost I wanna leave Dm E5 2023 Who the fuck are we
C Remember when we were young and we'd laugh at everything F Got caught up in a world that forgot how to dream C I'd never thought we'd end up here We're back in time to the best years F Remember when we were young We thought we knew everything F5 G5 Where did our childhood go C5 I wanna know F5 G5 Where did our childhood go C5 I wanna know Final
   F 
E|-----------------------------------------------------------| 
B|-----------------------5~~~~~~--------5~~~~---------5~~~~--| 
G|-2~~~~~~~~~~~~~~~~-5-7----------4-5-7---------4-5-7--------| 
D|-3~~~~~~~~~~~~~~~~------------7-------------7--------------| 
A|-3~~~~~~~~~~~~~~~~-----------------------------------------| 
E|-1~~~~~~~~~~~~~~~~-----------------------------------------|
E|-----------------------------------------------------------| 
B|---------5~~~~---------5~~~~---------5~~~~---------5~~~~---| 
G|---4-5-7---------4-5-7---------4-5-7---------4-5-7---------| 
D|-7-------------7-------------7-------------7---------------| 
A|-----------------------------------------------------------|
E|-----------------------------------------------------------|

Written by Tom Delonge / Travis Barkere Mark Hoppus

See Also: