Banda Estado Novo

Seja Como For(Chords)

Banda Estado Novo

Key: C

roll up this ad to continue

	        Intro 

E|------------------------------------------------| 
B|---------------5--------6---5--------------5----| 
G|-----5---7--------5------------7---5---7-----5--| 
D|-7----------------------------------------------| 
A|------------------------------------------------| 
E|------------------------------------------------|
C Cada dia me perdoo F Pra recomeçar de novo C F Nessa guerra até o fim C F Restos de paz no caminho C F Por onde me perdi G F Na tempestade em silencio G F Suporto minha dor G F O meu sangue o teu vinho G F Seja como for C F Tento me achar C F Em meio as velhas coisas sigo C F Na Escuridão C F Como um Barco Perdido G F Na Tempestade em silencio G F Suporto minha dor G F O meu sangue o teu vinho G F Seja como for Solo Parte 1 De 52x
E|--------------------------------------------| 
B|--------5----6-5---------------5------------| 
G|---5--7---5-------7---5---7-------5---------| 
D|7-------------------------------------------| 
A|--------------------------------------------| 
E|--------------------------------------------|
E|-8--5---5-----8--5---5-----5--10--8--7------| 
B|------8---5--------8---5---------------8/10-| 
G|------------5------------5------------------| 
D|--------------------------------------------| 
A|--------------------------------------------| 
E|--------------------------------------------|
E|-15---15---15---15---15---13---12---8-------| 
B|--------------------------------------------| 
G|--------------------------------------------| 
D|--------------------------------------------| 
A|--------------------------------------------| 
E|--------------------------------------------|
E|-10---8-------------------------------------| 
B|-------------10/13--------------------------| 
G|--------------------------------------------| 
D|--------------------------------------------| 
A|--------------------------------------------| 
E|--------------------------------------------|
E|---15---------------------------------------| 
B|--------------------------------------------| 
G|--------------------------------------------| 
D|--------------------------------------------| 
A|--------------------------------------------|
E|--------------------------------------------|

Written by Luis Henrique Oliveira

See Also: