E-Chords
Backyard Babies

Painkiller(Chords)

Backyard Babies

roll up this ad to continue

Key: E
Intro 
    E                            C 
eb|--------------------------------------------------| 
Bb|-10\12~-10~----10\12~-10~-----6\8~-6~---6\8~-6~---| 
Gb|-----------12~-----------12~---------8~--------8~-| 
Db|--------------------------------------------------| x2 
Ab|--------------------------------------------------| 
Eb|--------------------------------------------------|
Verse E D I see your phone's been cut off again E D did you shoot all your troubles up the vein A someone saw you A E said you were deadly pale C D another night in hell E another night in jail
C G looks like the chinaman's reelin' you in D looks like the horses is gonna win D looks like the monkeys E are holding on tight E say hello to darkness C goodbye light E painkiller
Verse E D and as obscurity beckons the call E D it seems oblivion is the only thing to cushion your fall A I believe that everything A E is gonna be too late C it all sinks along D E with the ship you chose to hate
C G looks like the chinaman's reelin' you in D looks like the horses is gonna win D looks like the monkeys E are holding on tight E say hello to darkness C goodbye light E painkiller
Solo 

eb|----------------------------------------------------------| 
Bb|----------------------------------------------------------| 
Gb|--------------------------9~-9-9-9-11-12-14-12-11-9-7-9-9-| 
Db|----------------------------------------------------------| 
Ab|-7~-7-7-7-9-10-12-10-9-7----------------------------------| 
Eb|----------------------------------------------------------| 

eb|----------------------------------------------------------| 
Bb|----------10b12--10b12--10b12--10b12--10b12--10b12--10b12-| 
Gb|-7h9------------------------------------------------------| 
Db|-----7-9--------------------------------------------------| 
Ab|----------------------------------------------------------| 
Eb|----------------------------------------------------------| 

eb|-------------------------18-18-18-18-18-18-18-18-18-18b20-| 
Bb|-10p8p7h8h10\15/10-8-7------------------------------------| 
Gb|----------------------------------------------------------| 
Db|----------------------------------------------------------| 
Ab|----------------------------------------------------------| 
Eb|----------------------------------------------------------| 

eb|-------------12-10-10-10----------------------------------| 
Bb|-------------------------12-12-12-10h12-10p8---8-10b12b10-| 
Gb|-7b9~~7\19/7---------------------------------9------------| 
Db|----------------------------------------------------------| 
Ab|----------------------------------------------------------| 
Eb|----------------------------------------------------------| 

eb|----------------------------------------------------------| 
Bb|-8~-7-8---7-----------------------------------------------| 
Gb|--------9---9-7h9-----------------------------------------| 
Db|----------------------------------------------------------| 
Ab|----------------------------------------------------------| 
Eb|----------------------------------------------------------| 
share this page

See Also: