E-Chords
Babasónicos

Esther Narcótica(Chords)

Babasónicos

Key: Am
INTRO: 

e----------------------------------------------- 
B----------------------------------------------- 
G---------------------0----------------------0-- 
D-0/2-0-----------0-2----0/2-0-----------0-2---- 
A-------3-2-0-2-3--------------3-2-0-2-3-------- 
E----------------------------------------------- 

e---------------------------------- 
B---------------------------------- 
G---------------------0------------ 
D-0/2-0-----------0-2---2-2-0------ 
A-------3-2-0-2-3-------------3-0-- 
E----------------------------------
Am C esther narcotica D F Am marchita tu mandrágora se hundió Am C mañana de gloria D F Am suicida y elegante despertó Am C frágil belladona D F Am a la deriva por el nilo va G D derrAma su vida y no tEme a nada F E su juventud encarna gotas del alba Am C péndulo hipnótico D F Am tu fuente danza envuelta en melathol Am C cocktail psicoactivo D F Am levita fEmenino su esplendor Am C agria datura D F Am espinas en la lengua, muérdago G D derrAma su vida y no tEme a nada F E su juventud encarna gotas del alba Am C viejas las rocas D F Am inocente esther nueva sos vos D F Am inocente esther nueva sos vos D F inocente esther Am nueva sos vos Disfrutenla.

roll up this ad to continue

share this page

See Also: