E-Chords
Ari Escamilla

Sol De Verano(Chords)

Ari Escamilla

roll up this ad to continue

Key: Dm
INTRO 

   Dm  | Dm       | Gm | Gm |    C | C |       F |  A 
E|---------------------------------------------------| 
B|-1/3---1/3-3-3-1-1-1-------------------------------| 
G|---------------------3-3-2-3--2/3-2-3-5-5-3-2-0-0-2| 
D|---------------------------------------------------| 
A|---------------------------------------------------| 
E|---------------------------------------------------| 
Dm Gm Tan solo si quieres tú bien puedo ser para ti C Ternura y caricias, un tiempo sin prisas F A Tus sueños de juventud Dm Gm Y quiero ser ese amor que te pueda consolar C Ser más que tu amiga, ya no necesitas F D7 Buscarme en alguien más CORO E|-------| Gm B|-5/6-5-| Y como un sol de verano E|-------| C F B|-3/5-3-| La playa de tu desierto E|-------| Bb Gm B|-6/8-6-5-| Y te has pasado buscando A Dm Lo que ya estaba en tus manos D7 Ya ves, E|-------| Gm B|-5/6-5-| Y como un sol de verano E|-------| C F B|-3/5-3-| La calma de tu tormenta Bb Gm No pienses más en marcharte G|----| A Dm A Dm D|-7--| Porque ese amor que tu sueñas quiero ser
SOLO 


  Dm               Gm                    C                 F      A 
E|-----------------------------------------------------------------| 
B|-----------------------------------------------------------------| 
G|------5-7-9-10-10-12-10-----------9/10-9-7-9-10-12-10-9-7-7-5--6-| 
D|--5/7-------------------7-8-7-8----------------------------------| 
A|-----------------------------------------------------------------| 
E|-----------------------------------------------------------------| 
Dm Gm Mis sueños los llevas tú prendidos a tu inquietud C Y solo te pido que vuelvas los ojos F D7 Y mires todo este amor CORO E|-------| Gm B|-5/6-5-| Y como un sol de verano E|-------| C F B|-3/5-3-| La playa de tu desierto E|-------| Bb Gm B|-6/8-6-5-| Y te has pasado buscando A Dm Lo que ya estaba en tus manos D7 Ya ves, E|-------| Gm B|-5/6-5-| Y como un sol de verano E|-------| C F B|-3/5-3-| La calma de tu tormenta Bb Gm No pienses más en marcharte A Dm A Dm Porque ese amor que tu sueñas quiero ser
PUENTE 

                  Gm            C 
E|-------------------------------- 
B|-------------8-10-11-11-11------ 
G|--7-6-7-9-10---------------10-9- 
D|-------------------------------- 
A|-------------------------------- 
E|-------------------------------- 


          F          Bb       Gm       A     Dm    D7 
E|---------------------------------------------------| 
B|--------10-10-10--------5-6-8-8-8----------6--8--10| 
G|-9-10-12---------9-7--7-----------7-6-7-9----------| 
D|---------------------------------------------------| 
A|---------------------------------------------------| 
E|---------------------------------------------------| 
CORO E|-------| Gm B|-5/6-5-| Y como un sol de verano E|-------| C F B|-3/5-3-| La playa de tu desierto E|-------| Bb Gm B|-6/8-6-5-| Y te has pasado buscando A Dm Lo que ya estaba en tus manos D7 Ya ves, E|-------| Gm B|-5/6-5-| Y como un sol de verano E|-------| C F B|-3/5-3-| La calma de tu tormenta Bb Gm No pienses más en marcharte A Dm A Dm Porque ese amor que tu sueñas quiero ser A Dm Quiero ser A Dm Quiero ser
share this page

See Also: