Antonio Ríos

Quiero Decirte Al Oido(Chords)

Antonio Ríos

Key: Em

roll up this ad to continue

	        ESTA VERSION ESTA PERFECTA 
                       Em                     Am 
e|------------------------------------------------| 
B|------------------------------------------------| 
G|------------------------------------------------| 
D|--------5-5-4-5-4-5-4----------5-5-4-5-4-5-4----| 
A|----5-7---------------7----5-7---------------3--| 
E|--7----------------------7----------------------| 

    D ( 2 veces )             G       B 
e|-------------------|--------------------------------| 
B|-------------------|--------------------------------| 
G|-------------------|--------------------------------| 
D|--7-5-4------------|--------------------------------| 
A|--------7-5-3-5-5--|----------2-4-5-6-6-6-65-6-7----| 
E|-------------------|--0-3-5-7-----------------------|
Em quiero decirte al oido, tantas cosas preciosas Am que estoy sintiendo por tí D que te quiero que te adoro tu eres la mujer que he soñado C B que me haces muy feliiiiz Em Am D G que cuando no estáaas me falta el aire Em Am D G tu eres la razóoon de mi existir Em Am D G amor por favooor nunca me faltes C B porque tu eres todo para mí D Em D Em D Em D C B Em C nunca me faltes, nunca me engañes D B que sin tu amor, yo no soy nadie

Written by Antonio Rios

See Also: