E-Chords
The Hep Stars

Ive Said It All Before(Bass guitar)

The Hep Stars

roll up this ad to continue

Key: E
0:05 

G|----------------------------------------------------------------| 
D|7---------------5-----------------------------------------------| 
A|--------------------------------8---------------7---------------| 
E|----------------------------------------------------------------| 

G|----------------------------------------------------------------| 
D|7-------------------------------7-------------------------------| 
A|----------------7---------------------------------------4-------| 
E|------------------------------------------------5---------------| 

G|----------------------------------------------------------------| 
D|------------------------5---------------------------------------| 
A|5-------3-------2---------------3-------2-------5-------7-------| 
E|----------------------------------------------------------------| 

G|----------------------------------------------------------------| 
D|7---------------5-----------------------------------------------| 
A|--------------------------------8---------------7---------------| 
E|----------------------------------------------------------------| 

0:27 

G|----------------------------------------------------------------| 
D|7-------------------------------7-------------------------------| 
A|----------------7---------------------------------------4-------| 
E|------------------------------------------------5---------------| 

G|----------------------------------------------------------------| 
D|------------------------5---------------------------------------| 
A|5-------3-------2---------------3-------2-------5-------7-------| 
E|----------------------------------------------------------------| 

G|----------------------------------------------------------------| 
D|7---------------5---------------7---------------5---------------| 
A|----------------------------------------------------------------| 
E|----------------------------------------------------------------| 

0:43 

G|----------------10------------------------------9---------------| 
D|--------10--------------10--------------9---------------9-------| 
A|8-------------------------------7-------------------------------| 
E|----------------------------------------------------------------| 

G|--------9---------------9-----------------------9---------------| 
D|7---------------7-----------------------9---------------9-------| 
A|--------------------------------7-------------------------------| 
E|----------------------------------------------------------------| 

G|----------------10----------------------------------------------| 
D|--------10--------------10----------------------7---------------| 
A|8---------------------------------------7---------------7-------| 
E|--------------------------------5-------------------------------| 

G|--------7-------------------------------7---------------9-------| 
D|----7-------7-----------7-----------7-------7-------9-------9---| 
A|5-------------------7-------7---5---------------7---------------| 
E|----------------5-----------------------------------------------| 

G|----------------------------------------------------------------| 
D|7---------------5-----------------------------------------------| 
A|--------------------------------8---------------7---------------| 
E|----------------------------------------------------------------| 

1:09 

G|----------------------------------------------------------------| 
D|7-------------------------------7-------------------------------| 
A|----------------7---------------------------------------4-------| 
E|------------------------------------------------5---------------| 

G|----------------------------------------------------------------| 
D|------------------------5---------------------------------------| 
A|5-------3-------2---------------3-------2-------5-------7-------| 
E|----------------------------------------------------------------| 

G|----------------------------------------------------------------| 
D|7---------------5---------------------------------------4---6---| 
A|--------------------------------8---------------7---------------| 
E|----------------------------------------------------------------| 

1:24 

G|------------------------------------9---6-----------------------| 
D|7-----------7-------9---6-------7-----------7---------------7---| 
A|--------4-------7-----------7---------------------------4-------| 
E|----5-------------------------------------------5---7-----------| 

G|----------------------------------------------------------------| 
D|----7-------5-------5---3---2-------5-------4-------7-------9---| 
A|5-------3-------2---------------3-------2-------5-------7-------| 
E|----------------------------------------------------------------| 

G|----9---6-------------------7-----------------------------------| 
D|7-----------7---7---5---5---------------10----------9---6-------| 
A|--------------------------------8---8-------8---7-----------7---| 
E|----------------------------------------------------------------| 

1:39 

G|----9---6---------------------------9---6-----------------------| 
D|7-----------7-------9---6-------7-----------7---------------7---| 
A|----------------7-----------7---------------------------4-------| 
E|------------------------------------------------5---7-----------| 

G|----------------------------------------------------------------| 
D|----7-------5-------5---3---2-------5-------4-------7-------9---| 
A|5-------3-------2---------------3-------2-------5-------7-------| 
E|----------------------------------------------------------------| 

G|----------------------------------------------------------------| 
D|7---------------5---------------7---------------5---------------| 
A|----------------------------------------------------------------| 
E|----------------------------------------------------------------| 

1:55 

G|----------------10------------------------------9---------------| 
D|--------10--------------10--------------9---------------9-------| 
A|8-------------------------------7-------------------------------| 
E|----------------------------------------------------------------| 

G|--------9---------------9-----------------------9---------------| 
D|7---------------7-----------------------9---------------9-------| 
A|--------------------------------7-------------------------------| 
E|----------------------------------------------------------------| 

G|----------------10----------------------------------------------| 
D|--------10--------------10----------------------7---------------| 
A|8---------------------------------------7---------------7-------| 
E|--------------------------------5-------------------------------| 

G|--------7-------------------------------7---------------9-------| 
D|----7-------7-----------7-----------7-------7-------9-------9---| 
A|5-------------------7-------7---5---------------7---------------| 
E|----------------5-----------------------------------------------| 

G|----------------------------------------------------------------| 
D|7---------------5-----------------------------------------------| 
A|--------------------------------8---------------7---------------| 
E|----------------------------------------------------------------| 

2:20 

G|----------------------------------------------------------------| 
D|7-------------------------------7-------------------------------| 
A|----------------7---------------------------------------4-------| 
E|------------------------------------------------5---------------| 

G|----------------------------------------------------------------| 
D|------------------------5---------------------------------------| 
A|5-------3-------2---------------3-------2-------5-------7-------| 
E|----------------------------------------------------------------| 

Until fadeout. 

G|----------------------------------------------------------------| 
D|7---------------5-----------------------------------------------| 
A|--------------------------------8---------------7---------------| 
E|----------------------------------------------------------------| 
share this page

See Also: