The Casualties

"4q"(Bass guitar)

The Casualties

roll up this ad to continue

	        

Verse 
G|----------------------------- 
D|----------------------------- 
A|----------555--333333-555----- 
E|----333333------------------ 

Chorus 
G|------------------------------ 
D|------------------------------- 
A|--------------5--3--5------- 
E|----3333---------------

Verse 
G|----------------------------- 
D|----------------------------- 
A|----------555--333333-555----- 
E|----333333------------------ 

Chorus 
G|------------------------------ 
D|------------------------------- 
A|--------------5--3--5------- 
E|----3333---------------
Verse 
G|----------------------------- 
D|----------------------------- 
A|----------555--333333-555----- 
E|----333333------------------ 

Chorus 
G|------------------------------ 
D|------------------------------- 
A|--------------5--3--5------- 
E|----3333---------------

Verse 
G|----------------------------- 
D|----------------------------- 
A|----------555--333333-555----- 
E|----333333------------------ 

Chorus 
G|------------------------------ 
D|------------------------------- 
A|--------------5--3--5------- 
E|----3333---------------

	        

See Also: