The Academy Is

Bulls In Brooklyn(Bass guitar)

The Academy Is

roll up this ad to continue

	        (Intro) Drums 

(Verse) 
G------------------------------------------------| 
D-------6-----------6----------------------------| 
A-----7---7-------7---7--------------------------| 
E-7h9-------9-7h9-------9------------------------| 

(Chorus) 
G------------------------------------------------| 
D------------------------------------------------| 
A------------------------------------------------| 
E-9-4-000-(etc)-(then)-555555555555-777777777777-| 

(Bridge) Not really sure on this part but here it goes 
G------------------------------------------------| 
D------------------------------------------------| 
A------------------------------------------------| w/ fills i didn't tab 
E-5-5-5-5-5-5-5-5-0-0-0-0-0-0-0-0----------------| cause im lazy =}
	        

See Also: