E-Chords
Ruby Haunt

Royal Moon(Bass guitar)

Ruby Haunt

roll up this ad to continue

Intro 
(00:10) 
G|-----------|---------|---------|--------| x2 
D|-----------|---------|-4-------|--------| 
A|-6------6-\|-4-------|---------|--------| 
E|-----------|---------|---------|--------| 

verse 1/Pre-Chorus 
G|----------|---------|---------|--------|  
D|----------|---------|-4-------|--------| 
A|-6------6-|-4-------|---------|--------| 
E|----------|---------|---------|--------| 

G|-----------|---------|---------|--------| x2 
D|-----------|---------|-4-------|--------| 
A|-6------6-\|-4-------|---------|--------| 
E|-----------|---------|---------|--------| 

G|----------|---------|---------|--------|  
D|----------|---------|-4-------|--------| 
A|-6------6-|-4-------|---------|--------| 
E|----------|---------|---------|--------| 

G|-----------|---------|---------|--------|  
D|-----------|---------|-4-------|--------| 
A|-6------6-\|-4-------|---------|--------| 
E|-----------|---------|---------|--------| 

G|----------|---------|---------|--------|  
D|----------|---------|-4-------|--------| 
A|-6------6-|-4-------|---------|--------| 
E|----------|---------|---------|--------| 

Chorus 
G|-----------------|----------------|----------------|----------------| x3 
D|-----------------|----------------|-4-4-4-4-4-4-4-4|-6-6-6-6-6-6-6-6| 
A|-6-6-6-6-6-6-6-6\|-4-4-4-4-4-4-4-4|----------------|----------------| 
E|-----------------|----------------|----------------|----------------| 

G|-----------------|----------------|----------------|-----------------|  
D|-----------------|----------------|-4-4-4-4-4-4-4-4|-6-6-6-6-6-6-6-6\| 
A|-6-6-6-6-6-6-6-6\|-4-4-4-4-4-4-4-4|----------------|-----------------| 
E|-----------------|----------------|----------------|-----------------| 

Interlude 
(01:55 ~ 02:11 - No Bass) 

verse 2/Pre-Chorus 
(02:12) 
G|----------|---------|---------|--------|  
D|----------|---------|-4-------|--------| 
A|-6------6-|-4-------|---------|--------| 
E|----------|---------|---------|--------| 

G|-----------|---------|---------|--------| x2 
D|-----------|---------|-4-------|--------| 
A|-6------6-\|-4-------|---------|--------| 
E|-----------|---------|---------|--------| 

G|----------|---------|---------|--------|  
D|----------|---------|-4-------|--------| 
A|-6------6-|-4-------|---------|--------| 
E|----------|---------|---------|--------| 

G|-----------|---------|---------|--------|  
D|-----------|---------|-4-------|--------| 
A|-6------6-\|-4-------|---------|--------| 
E|-----------|---------|---------|--------| 

G|----------|---------|---------|--------|  
D|----------|---------|-4-------|--------| 
A|-6------6-|-4-------|---------|--------| 
E|----------|---------|---------|--------| 

Chorus/Including Outro 
G|-----------------|----------------|----------------|----------------| x7 
D|-----------------|----------------|-4-4-4-4-4-4-4-4|-6-6-6-6-6-6-6-6| 
A|-6-6-6-6-6-6-6-6\|-4-4-4-4-4-4-4-4|----------------|----------------| 
E|-----------------|----------------|----------------|----------------| 

G|-----------------|----------------|----------------|-----------------|  
D|-----------------|----------------|-4-4-4-4-4-4-4-4|-6-6-6-6-6-6-6-6\| 
A|-6-6-6-6-6-6-6-6\|-4-4-4-4-4-4-4-4|----------------|-----------------| 
E|-----------------|----------------|----------------|-----------------| 


************************************ 

| \ Slide down  

************************************ 
share this page

See Also: