E-Chords
Explosions In The Sky

Be Comfortable Creature(Bass guitar)

Explosions In The Sky

roll up this ad to continue


(2:21-2:26) 

G|-------------------| 
D|-------------------| 
A|-------------------| 
E|---10~-------10~---| 

(2:27-3:31) 
G|-------------------------------| 
D|-------------------------------|  Repeat 
A|-----12-9---7-4---9-5--4-0-----| 
E|--10------5-----7-----2--------| 

(3:32-3:57) 

G|---------------------------------------| 
D|---------------------------------------|  Repeat 
A|---------------------------------------| 
E|--5-55-5/10-1010-10\3-33-3/7-77-7\-----| 

(3:58-4:49)
 
G|-------------------------------| 
D|-------------------------------|  Repeat 
A|-----12-9---7-4---9-5--4-0-----| 
E|--10------5-----7-----2--------| 

(4:50-5:15) 

G|---------------------------------------| 
D|---------------------------------------|  Repeat 
A|---------------------------------------| 
E|--5-55-5/10-1010-10\3-33-3/7-77-7\-----| 

(5:16-5:41)
 
G|-------------------------------| 
D|-------------------------------|  Repeat 
A|-----12-9---7-4---9-5--4-0-----| 
E|--10------5-----7-----2--------| 



 
share this page

See Also: