E-Chords
Everclear

Elektra Made Me Blind(Bass guitar)

Everclear

roll up this ad to continue



 - 

Verse
G|------------------------------------------------|
D|------------------------------------------------|
A|------------------------------------------------|
E|5-5-5-5-5-5-5-5-5-5-5-5-5-5-5-5-5-5-5-5-5-5-5-5-|

G|-----------------|
D|-----------------|
A|-2-2-2-2-4-4-4-4-|
E|-----------------|

Chorus
G|------------------------------|
D|------------------------------|
A|---------8-8-7-7-7-7-11-11-11-|
E|-5-5-5-8----------------------|

G|---------------------------------------------------------------------|
D|---------------------------------------------------------------------|
A|-----------------8-8-8-8-8-8-8-8-7-7-7-7-7-7-7-7-9-9-9-9-11-11-11-11-|
E|-5-5-5-5-5-5-5-5-----------------------------------------------------|
share this page

See Also: