E-Chords
Brainbox

Summertime(Bass guitar)

Brainbox

Key: A
Intro 
G|---------|-------------||------------------------------| 
D|---------|-------------||------------------------------| 
A|5--------|-------------||------------------------------| (2x) 
E|---------|8----7----5--||5--5---7--7---8--8---7--7-----| 

Verse 
G|------------------------------| 
D|------------------------------| 
A|------------------------------|(2x) 
E|5--5---7--7---8--8---7--7-----| 

(A) 
G|-----------------------------------------------------------------| 
D|-----------------------------------------------------------------| 
A|5--5---7--7--8-8-8-8--7-7-7-7-7-7-7-7-7-7--7-7--5----------------| 
E|----------------------------------------------------8---7---5----| 

G|-------------------------------||------------------------------| 
D|-------------------------------||------------------------------| 
A|-------------------------------||------0-0-----2-3---------5---| 
E|-5--5---7--7---8--8---7--7-----||3--3-------------------5------| 

                             (2x) 
G|-----------------------------------------------------------------| 
D|------------5--6-7--7--------------------------------------------| 
A|--7-8-8--7-------------7--7--7--5--------------------------------| 
E|-----------------------------------8-----7-----5-----------------| 

G|------------------------------| 
D|------------------------------| 
A|------------------------------|(2x) 
E|5--5---7--7---8--8---7--7-----| 

G|-----------------------------------------------------------------| 
D|-----------------------------------------------------------------| 
A|5--5---7--7--8-8-8-8--7-7-7-7-7-7-7-7-7-7--7-7--5----------------| 
E|----------------------------------------------------8---7---5----| 

G|-------------------------------||------------------------------| 
D|-------------------------------||------------------------------| 
A|-------------------------------||------0-0-----2-3---------5---| 
E|-5--5---7--7---8--8---7--7-----||3--3-------------------5------| 

                              (2x) 
G|-----------------------------------------------------------------| 
D|------------5--6-7--7--------------------------------------------| 
A|--7-8-8--7-------------7--7--7--5--------------------------------| 
E|-----------------------------------8-----7-----5-----------------| 

G|------------------------------| 
D|------------------------------| 
A|------------------------------|(2x) 
E|5--5---7--7---8--8---7--7-----| 

( Repeat from A 4 times ) 

Outro 
G|--------------------------------------------------| 
D|-5--5---------------------------------------------| 
A|-------3---------7---5----------------------------| 
E|----------5--------------8---7--7-----5-----------| 

roll up this ad to continue

share this page

See Also: