E-Chords
Big Sir

Be Brave Go On(Bass guitar)

Big Sir

roll up this ad to continue

 

G|---------------(7)-7---7-------------|-------------------(5)-5---5---------|  
D|------12\5-5---------5---------------|--------12\5--5----------5-----------|  
A|-------------------------------------|-----------------3-------------------| 
E|-------------------------------------|-------------------------------------|  

G|------------------7-7----------------|---------------------7---------------| 
D|---5-5--7-7--8-8-------8-8-----------|------5-5--7-7--8-8-----8~-----------| 
A|----------------------------8-8--6---|-------------------------------------| 
E|-------------------------------------|-------------------------------------| 
 
share this page

See Also: